  0
SECTION
  2
HEADER
  9
$ACADVER
  1
AC1015
  9
$ACADMAINTVER
 70
     6
  9
$DWGCODEPAGE
  3
ANSI_1254
  9
$INSBASE
 10
0.0
 20
0.0
 30
0.0
  9
$EXTMIN
 10
0.0
 20
0.0
 30
0.0
  9
$EXTMAX
 10
279.4
 20
215.9
 30
0.0
  9
$LIMMIN
 10
0.0
 20
0.0
  9
$LIMMAX
 10
279.4
 20
215.9
  9
$ORTHOMODE
 70
     0
  9
$REGENMODE
 70
     1
  9
$FILLMODE
 70
     1
  9
$QTEXTMODE
 70
     0
  9
$MIRRTEXT
 70
     1
  9
$LTSCALE
 40
1.0
  9
$ATTMODE
 70
     1
  9
$TEXTSIZE
 40
3.5
  9
$TRACEWID
 40
1.0
  9
$TEXTSTYLE
  7
Standard
  9
$CLAYER
  8
0
  9
$CELTYPE
  6
ByLayer
  9
$CECOLOR
 62
   256
  9
$CELTSCALE
 40
1.0
  9
$DISPSILH
 70
     0
  9
$DIMSCALE
 40
1.0
  9
$DIMASZ
 40
3.5
  9
$DIMEXO
 40
1.0
  9
$DIMDLI
 40
3.75
  9
$DIMRND
 40
0.0
  9
$DIMDLE
 40
0.0
  9
$DIMEXE
 40
1.0
  9
$DIMTP
 40
0.0
  9
$DIMTM
 40
0.0
  9
$DIMTXT
 40
3.5
  9
$DIMCEN
 40
2.5
  9
$DIMTSZ
 40
0.0
  9
$DIMTOL
 70
     0
  9
$DIMLIM
 70
     0
  9
$DIMTIH
 70
     1
  9
$DIMTOH
 70
     1
  9
$DIMSE1
 70
     0
  9
$DIMSE2
 70
     0
  9
$DIMTAD
 70
     1
  9
$DIMZIN
 70
     0
  9
$DIMBLK
  1

  9
$DIMASO
 70
     1
  9
$DIMSHO
 70
     1
  9
$DIMPOST
  1

  9
$DIMAPOST
  1

  9
$DIMALT
 70
     0
  9
$DIMALTD
 70
     3
  9
$DIMALTF
 40
0.0393700787
  9
$DIMLFAC
 40
1.0
  9
$DIMTOFL
 70
     1
  9
$DIMTVP
 40
0.0
  9
$DIMTIX
 70
     0
  9
$DIMSOXD
 70
     0
  9
$DIMSAH
 70
     0
  9
$DIMBLK1
  1

  9
$DIMBLK2
  1

  9
$DIMSTYLE
  2
ISO-25
  9
$DIMCLRD
 70
     0
  9
$DIMCLRE
 70
     0
  9
$DIMCLRT
 70
     0
  9
$DIMTFAC
 40
1.0
  9
$DIMGAP
 40
1.524
  9
$DIMJUST
 70
     0
  9
$DIMSD1
 70
     0
  9
$DIMSD2
 70
     0
  9
$DIMTOLJ
 70
     0
  9
$DIMTZIN
 70
     0
  9
$DIMALTZ
 70
     0
  9
$DIMALTTZ
 70
     0
  9
$DIMUPT
 70
     0
  9
$DIMDEC
 70
     2
  9
$DIMTDEC
 70
     2
  9
$DIMALTU
 70
     2
  9
$DIMALTTD
 70
     3
  9
$DIMTXSTY
  7
Standard
  9
$DIMAUNIT
 70
     0
  9
$DIMADEC
 70
     2
  9
$DIMALTRND
 40
0.0
  9
$DIMAZIN
 70
     0
  9
$DIMDSEP
 70
    44
  9
$DIMATFIT
 70
     3
  9
$DIMFRAC
 70
     0
  9
$DIMLDRBLK
  1

  9
$DIMLUNIT
 70
     2
  9
$DIMLWD
 70
    -2
  9
$DIMLWE
 70
    -2
  9
$DIMTMOVE
 70
     0
  9
$LUNITS
 70
     2
  9
$LUPREC
 70
     2
  9
$SKETCHINC
 40
1.0
  9
$FILLETRAD
 40
10.0
  9
$AUNITS
 70
     0
  9
$AUPREC
 70
     2
  9
$MENU
  1
.
  9
$ELEVATION
 40
0.0
  9
$PELEVATION
 40
0.0
  9
$THICKNESS
 40
0.0
  9
$LIMCHECK
 70
     0
  9
$CHAMFERA
 40
0.0
  9
$CHAMFERB
 40
0.0
  9
$CHAMFERC
 40
0.0
  9
$CHAMFERD
 40
0.0
  9
$SKPOLY
 70
     0
  9
$TDCREATE
 40
2460608.530328692
  9
$TDUCREATE
 40
2460608.405328692
  9
$TDUPDATE
 40
2460608.530328692
  9
$TDUUPDATE
 40
2460608.405328692
  9
$TDINDWG
 40
0.0000000116
  9
$TDUSRTIMER
 40
0.0000000116
  9
$USRTIMER
 70
     1
  9
$ANGBASE
 50
0.0
  9
$ANGDIR
 70
     0
  9
$PDMODE
 70
     0
  9
$PDSIZE
 40
-1.0
  9
$PLINEWID
 40
0.0
  9
$SPLFRAME
 70
     0
  9
$SPLINETYPE
 70
     6
  9
$SPLINESEGS
 70
     8
  9
$HANDSEED
  5
D2
  9
$SURFTAB1
 70
     6
  9
$SURFTAB2
 70
     6
  9
$SURFTYPE
 70
     6
  9
$SURFU
 70
     6
  9
$SURFV
 70
     6
  9
$UCSBASE
  2

  9
$UCSNAME
  2

  9
$UCSORG
 10
0.0
 20
0.0
 30
0.0
  9
$UCSXDIR
 10
1.0
 20
0.0
 30
0.0
  9
$UCSYDIR
 10
0.0
 20
1.0
 30
0.0
  9
$UCSORTHOREF
  2

  9
$UCSORTHOVIEW
 70
     0
  9
$UCSORGTOP
 10
0.0
 20
0.0
 30
0.0
  9
$UCSORGBOTTOM
 10
0.0
 20
0.0
 30
0.0
  9
$UCSORGLEFT
 10
0.0
 20
0.0
 30
0.0
  9
$UCSORGRIGHT
 10
0.0
 20
0.0
 30
0.0
  9
$UCSORGFRONT
 10
0.0
 20
0.0
 30
0.0
  9
$UCSORGBACK
 10
0.0
 20
0.0
 30
0.0
  9
$PUCSBASE
  2

  9
$PUCSNAME
  2

  9
$PUCSORG
 10
0.0
 20
0.0
 30
0.0
  9
$PUCSXDIR
 10
1.0
 20
0.0
 30
0.0
  9
$PUCSYDIR
 10
0.0
 20
1.0
 30
0.0
  9
$PUCSORTHOREF
  2

  9
$PUCSORTHOVIEW
 70
     0
  9
$PUCSORGTOP
 10
0.0
 20
0.0
 30
0.0
  9
$PUCSORGBOTTOM
 10
0.0
 20
0.0
 30
0.0
  9
$PUCSORGLEFT
 10
0.0
 20
0.0
 30
0.0
  9
$PUCSORGRIGHT
 10
0.0
 20
0.0
 30
0.0
  9
$PUCSORGFRONT
 10
0.0
 20
0.0
 30
0.0
  9
$PUCSORGBACK
 10
0.0
 20
0.0
 30
0.0
  9
$USERI1
 70
     0
  9
$USERI2
 70
     0
  9
$USERI3
 70
     0
  9
$USERI4
 70
     0
  9
$USERI5
 70
     0
  9
$USERR1
 40
0.0
  9
$USERR2
 40
0.0
  9
$USERR3
 40
0.0
  9
$USERR4
 40
0.0
  9
$USERR5
 40
0.0
  9
$WORLDVIEW
 70
     1
  9
$SHADEDGE
 70
     3
  9
$SHADEDIF
 70
    70
  9
$TILEMODE
 70
     1
  9
$MAXACTVP
 70
    64
  9
$PINSBASE
 10
0.0
 20
0.0
 30
0.0
  9
$PLIMCHECK
 70
     0
  9
$PEXTMIN
 10
1.0000000000E+20
 20
1.0000000000E+20
 30
1.0000000000E+20
  9
$PEXTMAX
 10
-1.0000000000E+20
 20
-1.0000000000E+20
 30
-1.0000000000E+20
  9
$PLIMMIN
 10
0.0
 20
0.0
  9
$PLIMMAX
 10
420.0
 20
297.0
  9
$UNITMODE
 70
     0
  9
$VISRETAIN
 70
     1
  9
$PLINEGEN
 70
     0
  9
$PSLTSCALE
 70
     1
  9
$TREEDEPTH
 70
  3020
  9
$CMLSTYLE
  2
Standard
  9
$CMLJUST
 70
     0
  9
$CMLSCALE
 40
20.0
  9
$PROXYGRAPHICS
 70
     1
  9
$MEASUREMENT
 70
     1
  9
$CELWEIGHT
370
    -1
  9
$ENDCAPS
280
     0
  9
$JOINSTYLE
280
     0
  9
$LWDISPLAY
290
     1
  9
$INSUNITS
 70
     4
  9
$HYPERLINKBASE
  1

  9
$STYLESHEET
  1

  9
$XEDIT
290
     1
  9
$CEPSNTYPE
380
     0
  9
$PSTYLEMODE
290
     1
  9
$FINGERPRINTGUID
  2
{30910e55-1aa8-481e-a1d7-314fd88d153f}
  9
$VERSIONGUID
  2
{FAEB1C32-E019-11D5-929B-00C0DF256EC4}
  9
$EXTNAMES
290
     1
  9
$PSVPSCALE
 40
0.0
  9
$OLESTARTUP
290
     0
  0
ENDSEC
  0
SECTION
  2
CLASSES
  0
CLASS
  1
ACDBDICTIONARYWDFLT
  2
AcDbDictionaryWithDefault
  3
ObjectDBX Classes
 90
        0
280
     0
281
     0
  0
CLASS
  1
VISUALSTYLE
  2
AcDbVisualStyle
  3
ObjectDBX Classes
 90
     4095
280
     0
281
     0
  0
CLASS
  1
MATERIAL
  2
AcDbMaterial
  3
ObjectDBX Classes
 90
     1153
280
     0
281
     0
  0
CLASS
  1
SCALE
  2
AcDbScale
  3
ObjectDBX Classes
 90
     1153
280
     0
281
     0
  0
CLASS
  1
TABLESTYLE
  2
AcDbTableStyle
  3
ObjectDBX Classes
 90
     4095
280
     0
281
     0
  0
CLASS
  1
MLEADERSTYLE
  2
AcDbMLeaderStyle
  3
ACDB_MLEADERSTYLE_CLASS
 90
     4095
280
     0
281
     0
  0
CLASS
  1
SUN
  2
AcDbSun
  3
SCENEOE
 90
     1153
280
     0
281
     0
  0
CLASS
  1
ACDBPLACEHOLDER
  2
AcDbPlaceHolder
  3
ObjectDBX Classes
 90
        0
280
     0
281
     0
  0
CLASS
  1
LAYOUT
  2
AcDbLayout
  3
ObjectDBX Classes
 90
        0
280
     0
281
     0
  0
ENDSEC
  0
SECTION
  2
TABLES
  0
TABLE
  2
VPORT
  5
8
330
0
100
AcDbSymbolTable
 70
     1
  0
VPORT
  5
29
330
8
100
AcDbSymbolTableRecord
100
AcDbViewportTableRecord
  2
*Active
 70
     0
 10
0.0
 20
0.0
 11
1.0
 21
1.0
 12
139.7
 22
107.95
 13
0.0
 23
0.0
 14
10.0
 24
10.0
 15
10.0
 25
10.0
 16
0.0
 26
0.0
 36
1.0
 17
0.0
 27
0.0
 37
0.0
 40
215.9
 41
1.2941176471
 42
50.0
 43
0.0
 44
0.0
 50
0.0
 51
0.0
 71
     0
 72
  2000
 73
     1
 74
     3
 75
     0
 76
     0
 77
     0
 78
     0
281
     0
 65
     1
110
0.0
120
0.0
130
0.0
111
1.0
121
0.0
131
0.0
112
0.0
122
1.0
132
0.0
 79
     0
146
0.0
  0
ENDTAB
  0
TABLE
  2
LTYPE
  5
5
330
0
100
AcDbSymbolTable
 70
     6
  0
LTYPE
  5
14
330
5
100
AcDbSymbolTableRecord
100
AcDbLinetypeTableRecord
  2
ByBlock
 70
     0
  3

 72
    65
 73
     0
 40
0.0
  0
LTYPE
  5
15
330
5
100
AcDbSymbolTableRecord
100
AcDbLinetypeTableRecord
  2
ByLayer
 70
     0
  3

 72
    65
 73
     0
 40
0.0
  0
LTYPE
  5
16
330
5
100
AcDbSymbolTableRecord
100
AcDbLinetypeTableRecord
  2
Continuous
 70
     0
  3
Solid line
 72
    65
 73
     0
 40
0.0
  0
LTYPE
  5
6E
330
5
100
AcDbSymbolTableRecord
100
AcDbLinetypeTableRecord
  2
HIDDEN
 70
     0
  3
Hidden __ __ __ __ __ __ __ __ __ __ __ __ __ __
 72
    65
 73
     2
 40
1.905
 49
1.27
 74
     0
 49
-0.635
 74
     0
  0
LTYPE
  5
6F
330
5
100
AcDbSymbolTableRecord
100
AcDbLinetypeTableRecord
  2
PHANTOM
 70
     0
  3
Phantom ______  __  __  ______  __  __  ______
 72
    65
 73
     6
 40
12.7
 49
6.35
 74
     0
 49
-1.27
 74
     0
 49
1.27
 74
     0
 49
-1.27
 74
     0
 49
1.27
 74
     0
 49
-1.27
 74
     0
  0
LTYPE
  5
70
330
5
100
AcDbSymbolTableRecord
100
AcDbLinetypeTableRecord
  2
CENTER
 70
     0
  3
Center ____ _ ____ _ ____ _ ____ _ ____ _ ____
 72
    65
 73
     4
 40
10.16
 49
6.35
 74
     0
 49
-1.27
 74
     0
 49
1.27
 74
     0
 49
-1.27
 74
     0
  0
LTYPE
  5
71
330
5
100
AcDbSymbolTableRecord
100
AcDbLinetypeTableRecord
  2
CENTERX2
 70
     0
  3
Center (2x) ________  __  ________  __  _____
 72
    65
 73
     4
 40
20.32
 49
12.7
 74
     0
 49
-2.54
 74
     0
 49
2.54
 74
     0
 49
-2.54
 74
     0
  0
LTYPE
  5
72
330
5
100
AcDbSymbolTableRecord
100
AcDbLinetypeTableRecord
  2
DOT2
 70
     0
  3
Dot (.5x) ........................................
 72
    65
 73
     2
 40
0.635
 49
0.0
 74
     0
 49
-0.635
 74
     0
  0
ENDTAB
  0
TABLE
  2
LAYER
  5
2
330
0
100
AcDbSymbolTable
 70
    17
  0
LAYER
  5
10
330
2
100
AcDbSymbolTableRecord
100
AcDbLayerTableRecord
  2
0
 70
     0
 62
     7
  6
Continuous
370
    -3
390
F
  0
LAYER
  5
73
330
2
100
AcDbSymbolTableRecord
100
AcDbLayerTableRecord
  2
FORMAT
 70
     0
 62
     7
  6
Continuous
370
    -3
390
F
  0
LAYER
  5
74
330
2
100
AcDbSymbolTableRecord
100
AcDbLayerTableRecord
  2
YARDIMCI_GEOMETRI
 70
     0
 62
    -6
  6
Continuous
290
     0
370
    -3
390
F
  0
LAYER
  5
75
330
2
100
AcDbSymbolTableRecord
100
AcDbLayerTableRecord
  2
SAYFA_CERCEVESI
 70
     0
 62
     7
  6
Continuous
370
    25
390
F
  0
LAYER
  5
76
330
2
100
AcDbSymbolTableRecord
100
AcDbLayerTableRecord
  2
ANTET
 70
     0
 62
     7
  6
Continuous
370
    -3
390
F
  0
LAYER
  5
77
330
2
100
AcDbSymbolTableRecord
100
AcDbLayerTableRecord
  2
OLCU
 70
     0
 62
   150
  6
Continuous
370
    -3
390
F
  0
LAYER
  5
78
330
2
100
AcDbSymbolTableRecord
100
AcDbLayerTableRecord
  2
METIN
 70
     0
 62
    96
  6
Continuous
370
    -3
390
F
  0
LAYER
  5
79
330
2
100
AcDbSymbolTableRecord
100
AcDbLayerTableRecord
  2
BALON
 70
     0
 62
     5
  6
Continuous
370
    -3
390
F
  0
LAYER
  5
7A
330
2
100
AcDbSymbolTableRecord
100
AcDbLayerTableRecord
  2
VURGU
 70
     0
 62
     7
  6
Continuous
370
    -3
390
F
  0
LAYER
  5
7B
330
2
100
AcDbSymbolTableRecord
100
AcDbLayerTableRecord
  2
SILIK
 70
     0
 62
     7
  6
Continuous
370
    -3
390
F
  0
LAYER
  5
7C
330
2
100
AcDbSymbolTableRecord
100
AcDbLayerTableRecord
  2
MODEL
 70
     0
 62
     7
  6
Continuous
370
    -3
390
F
  0
LAYER
  5
7D
330
2
100
AcDbSymbolTableRecord
100
AcDbLayerTableRecord
  2
DETAYLANDıRMA
 70
     0
 62
   190
  6
Continuous
370
    -3
390
F
  0
LAYER
  5
7E
330
2
100
AcDbSymbolTableRecord
100
AcDbLayerTableRecord
  2
TOLERANS
 70
     0
 62
   230
  6
Continuous
370
    -3
390
F
  0
LAYER
  5
7F
330
2
100
AcDbSymbolTableRecord
100
AcDbLayerTableRecord
  2
MERKEZ_CIZGILERI
 70
     0
 62
    30
  6
Continuous
370
    -3
390
F
  0
LAYER
  5
80
330
2
100
AcDbSymbolTableRecord
100
AcDbLayerTableRecord
  2
KESIT-DETAY_CIZGILERI
 70
     0
 62
     7
  6
Continuous
370
    -3
390
F
  0
LAYER
  5
81
330
2
100
AcDbSymbolTableRecord
100
AcDbLayerTableRecord
  2
\U+041E\U+0421\U+0415\U+0412\U+042B\U+0415
 70
     0
 62
     7
  6
Continuous
370
    -3
390
F
  0
LAYER
  5
82
330
2
100
AcDbSymbolTableRecord
100
AcDbLayerTableRecord
  2
\U+0412\U+041E\U+0414\U+042F\U+041D\U+042B\U+0415_\U+0417\U+041D\U+0410\U+041A\U+0418
 70
     0
 62
    11
  6
Continuous
370
    -3
390
F
  0
ENDTAB
  0
TABLE
  2
STYLE
  5
3
330
0
100
AcDbSymbolTable
 70
     1
  0
STYLE
  5
11
330
3
100
AcDbSymbolTableRecord
100
AcDbTextStyleTableRecord
  2
Standard
 70
     0
 40
0.0
 41
1.0
 50
0.0
 71
     0
 42
3.5
  3
txt
  4

  0
ENDTAB
  0
TABLE
  2
VIEW
  5
6
330
0
100
AcDbSymbolTable
 70
     0
  0
ENDTAB
  0
TABLE
  2
UCS
  5
7
330
0
100
AcDbSymbolTable
 70
     0
  0
ENDTAB
  0
TABLE
  2
APPID
  5
9
330
0
100
AcDbSymbolTable
 70
     1
  0
APPID
  5
12
330
9
100
AcDbSymbolTableRecord
100
AcDbRegAppTableRecord
  2
ACAD
 70
     0
  0
ENDTAB
  0
TABLE
  2
DIMSTYLE
  5
A
330
0
100
AcDbSymbolTable
 70
     1
100
AcDbDimStyleTable
  0
DIMSTYLE
105
27
330
A
100
AcDbSymbolTableRecord
100
AcDbDimStyleTableRecord
  2
ISO-25
 70
     0
 41
2.5
 42
0.625
 43
3.75
 44
1.25
 73
     0
 74
     0
 77
     1
 78
     8
140
2.5
141
2.5
143
0.0393700787
147
0.625
171
     3
172
     1
178
     0
271
     2
272
     2
274
     3
278
    44
283
     0
284
     8
340
11
  0
ENDTAB
  0
TABLE
  2
BLOCK_RECORD
  5
1
330
0
100
AcDbSymbolTable
 70
     3
  0
BLOCK_RECORD
  5
1F
330
1
100
AcDbSymbolTableRecord
100
AcDbBlockTableRecord
  2
*Model_Space
340
22
  0
BLOCK_RECORD
  5
1B
330
1
100
AcDbSymbolTableRecord
100
AcDbBlockTableRecord
  2
*Paper_Space
340
1E
  0
BLOCK_RECORD
  5
23
330
1
100
AcDbSymbolTableRecord
100
AcDbBlockTableRecord
  2
*Paper_Space0
340
26
  0
BLOCK_RECORD
  5
88
330
1
100
AcDbSymbolTableRecord
100
AcDbBlockTableRecord
  2
SW_CENTERMARKSYMBOL_0
340
0
102
{BLKREFS
331
93
102
}
  0
BLOCK_RECORD
  5
9E
330
1
100
AcDbSymbolTableRecord
100
AcDbBlockTableRecord
  2
SW_CENTERMARKSYMBOL_1
340
0
102
{BLKREFS
331
A9
102
}
  0
ENDTAB
  0
ENDSEC
  0
SECTION
  2
BLOCKS
  0
BLOCK
  5
20
330
1F
100
AcDbEntity
  8
0
100
AcDbBlockBegin
  2
*Model_Space
 70
     0
 10
0.0
 20
0.0
 30
0.0
  3
*Model_Space
  1

  0
ENDBLK
  5
21
330
1F
100
AcDbEntity
  8
0
100
AcDbBlockEnd
  0
BLOCK
  5
1C
330
1B
100
AcDbEntity
 67
     1
  8
0
100
AcDbBlockBegin
  2
*Paper_Space
 70
     0
 10
0.0
 20
0.0
 30
0.0
  3
*Paper_Space
  1

  0
ENDBLK
  5
1D
330
1B
100
AcDbEntity
 67
     1
  8
0
100
AcDbBlockEnd
  0
BLOCK
  5
24
330
23
100
AcDbEntity
  8
0
100
AcDbBlockBegin
  2
*Paper_Space0
 70
     0
 10
0.0
 20
0.0
 30
0.0
  3
*Paper_Space0
  1

  0
ENDBLK
  5
25
330
23
100
AcDbEntity
  8
0
100
AcDbBlockEnd
  0
BLOCK
  5
89
330
88
100
AcDbEntity
  8
0
100
AcDbBlockBegin
  2
SW_CENTERMARKSYMBOL_0
 70
     0
 10
0.0
 20
0.0
 30
0.0
  3
SW_CENTERMARKSYMBOL_0
  1

  0
LINE
  5
8B
330
88
100
AcDbEntity
  8
FORMAT
 62
     0
100
AcDbLine
 10
0.0
 20
0.0
 30
0.0
 11
0.0
 21
2.5
 31
0.0
  0
LINE
  5
8C
330
88
100
AcDbEntity
  8
FORMAT
 62
     0
100
AcDbLine
 10
0.0
 20
0.0
 30
0.0
 11
-2.5
 21
0.0
 31
0.0
  0
LINE
  5
8D
330
88
100
AcDbEntity
  8
FORMAT
 62
     0
100
AcDbLine
 10
0.0
 20
0.0
 30
0.0
 11
0.0
 21
-2.5
 31
0.0
  0
LINE
  5
8E
330
88
100
AcDbEntity
  8
FORMAT
 62
     0
100
AcDbLine
 10
0.0
 20
0.0
 30
0.0
 11
2.5
 21
0.0
 31
0.0
  0
LINE
  5
8F
330
88
100
AcDbEntity
  8
FORMAT
 62
     0
100
AcDbLine
 10
0.0
 20
5.0
 30
0.0
 11
0.0
 21
72.5
 31
0.0
  0
LINE
  5
90
330
88
100
AcDbEntity
  8
FORMAT
 62
     0
100
AcDbLine
 10
-5.0
 20
0.0
 30
0.0
 11
-72.5
 21
0.0
 31
0.0
  0
LINE
  5
91
330
88
100
AcDbEntity
  8
FORMAT
 62
     0
100
AcDbLine
 10
0.0
 20
-5.0
 30
0.0
 11
0.0
 21
-72.5
 31
0.0
  0
LINE
  5
92
330
88
100
AcDbEntity
  8
FORMAT
 62
     0
100
AcDbLine
 10
5.0
 20
0.0
 30
0.0
 11
72.5
 21
0.0
 31
0.0
  0
ENDBLK
  5
8A
330
88
100
AcDbEntity
  8
0
100
AcDbBlockEnd
  0
BLOCK
  5
9F
330
9E
100
AcDbEntity
  8
0
100
AcDbBlockBegin
  2
SW_CENTERMARKSYMBOL_1
 70
     0
 10
0.0
 20
0.0
 30
0.0
  3
SW_CENTERMARKSYMBOL_1
  1

  0
LINE
  5
A1
330
9E
100
AcDbEntity
  8
FORMAT
 62
     0
100
AcDbLine
 10
0.0
 20
0.0
 30
0.0
 11
0.0
 21
2.5
 31
0.0
  0
LINE
  5
A2
330
9E
100
AcDbEntity
  8
FORMAT
 62
     0
100
AcDbLine
 10
0.0
 20
0.0
 30
0.0
 11
-2.5
 21
0.0
 31
0.0
  0
LINE
  5
A3
330
9E
100
AcDbEntity
  8
FORMAT
 62
     0
100
AcDbLine
 10
0.0
 20
0.0
 30
0.0
 11
0.0
 21
-2.5
 31
0.0
  0
LINE
  5
A4
330
9E
100
AcDbEntity
  8
FORMAT
 62
     0
100
AcDbLine
 10
0.0
 20
0.0
 30
0.0
 11
2.5
 21
0.0
 31
0.0
  0
LINE
  5
A5
330
9E
100
AcDbEntity
  8
FORMAT
 62
     0
100
AcDbLine
 10
0.0
 20
5.0
 30
0.0
 11
0.0
 21
72.5
 31
0.0
  0
LINE
  5
A6
330
9E
100
AcDbEntity
  8
FORMAT
 62
     0
100
AcDbLine
 10
-5.0
 20
0.0
 30
0.0
 11
-72.5
 21
0.0
 31
0.0
  0
LINE
  5
A7
330
9E
100
AcDbEntity
  8
FORMAT
 62
     0
100
AcDbLine
 10
0.0
 20
-5.0
 30
0.0
 11
0.0
 21
-72.5
 31
0.0
  0
LINE
  5
A8
330
9E
100
AcDbEntity
  8
FORMAT
 62
     0
100
AcDbLine
 10
5.0
 20
0.0
 30
0.0
 11
72.5
 21
0.0
 31
0.0
  0
ENDBLK
  5
A0
330
9E
100
AcDbEntity
  8
0
100
AcDbBlockEnd
  0
ENDSEC
  0
SECTION
  2
ENTITIES
  0
LINE
  5
83
330
1F
100
AcDbEntity
  8
0
  6
Continuous
 62
     7
370
    25
100
AcDbLine
 10
78.872734836
 20
40.479861614
 30
0.0
 11
267.872734836
 21
40.479861614
 31
0.0
  0
LINE
  5
84
330
1F
100
AcDbEntity
  8
0
  6
Continuous
 62
     7
370
    25
100
AcDbLine
 10
267.872734836
 20
180.479861614
 30
0.0
 11
78.872734836
 21
180.479861614
 31
0.0
  0
CIRCLE
  5
85
330
1F
100
AcDbEntity
  8
0
  6
Continuous
 62
     7
370
    25
100
AcDbCircle
 10
78.872734836
 20
110.479861614
 30
0.0
 40
57.3
  0
CIRCLE
  5
86
330
1F
100
AcDbEntity
  8
0
  6
Continuous
 62
     7
370
    25
100
AcDbCircle
 10
78.872734836
 20
110.479861614
 30
0.0
 40
70.00000000000004
  0
LINE
  5
87
330
1F
100
AcDbEntity
  8
0
  6
Continuous
 62
     7
370
    25
100
AcDbLine
 10
267.872734836
 20
180.479861614
 30
0.0
 11
267.872734836
 21
40.479861614
 31
0.0
  0
INSERT
  5
93
330
1F
100
AcDbEntity
  8
FORMAT
 62
     7
100
AcDbBlockReference
  2
SW_CENTERMARKSYMBOL_0
 10
78.872734836
 20
110.479861614
 30
0.0
  0
LINE
  5
94
330
1F
100
AcDbEntity
  8
0
  6
Continuous
 62
     7
370
    25
100
AcDbLine
 10
-295.5310086401
 20
180.479861614
 30
0.0
 11
-485.5310086401
 21
180.479861614
 31
0.0
  0
LINE
  5
95
330
1F
100
AcDbEntity
  8
0
  6
Continuous
 62
     7
370
    25
100
AcDbLine
 10
-105.5310086401
 20
180.479861614
 30
0.0
 11
-295.5310086401
 21
180.479861614
 31
0.0
  0
LINE
  5
96
330
1F
100
AcDbEntity
  8
0
  6
Continuous
 62
     7
370
    25
100
AcDbLine
 10
-295.5310086401
 20
40.479861614
 30
0.0
 11
-105.5310086401
 21
40.479861614
 31
0.0
  0
LINE
  5
97
330
1F
100
AcDbEntity
  8
0
  6
Continuous
 62
     7
370
    25
100
AcDbLine
 10
-485.5310086401
 20
40.479861614
 30
0.0
 11
-295.5310086401
 21
40.479861614
 31
0.0
  0
CIRCLE
  5
98
330
1F
100
AcDbEntity
  8
0
  6
Continuous
 62
     7
370
    25
100
AcDbCircle
 10
-295.5310086401
 20
110.479861614
 30
0.0
 40
57.29999999999995
  0
CIRCLE
  5
99
330
1F
100
AcDbEntity
  8
0
  6
Continuous
 62
     7
370
    25
100
AcDbCircle
 10
-295.5310086401
 20
110.479861614
 30
0.0
 40
70.0
  0
LINE
  5
9A
330
1F
100
AcDbEntity
  8
0
  6
Continuous
 62
     7
370
    25
100
AcDbLine
 10
-485.5310086401
 20
110.479861614
 30
0.0
 11
-485.5310086401
 21
180.479861614
 31
0.0
  0
LINE
  5
9B
330
1F
100
AcDbEntity
  8
0
  6
Continuous
 62
     7
370
    25
100
AcDbLine
 10
-485.5310086401
 20
40.479861614
 30
0.0
 11
-485.5310086401
 21
110.479861614
 31
0.0
  0
LINE
  5
9C
330
1F
100
AcDbEntity
  8
0
  6
Continuous
 62
     7
370
    25
100
AcDbLine
 10
-105.5310086401
 20
110.479861614
 30
0.0
 11
-105.5310086401
 21
180.479861614
 31
0.0
  0
LINE
  5
9D
330
1F
100
AcDbEntity
  8
0
  6
Continuous
 62
     7
370
    25
100
AcDbLine
 10
-105.5310086401
 20
40.479861614
 30
0.0
 11
-105.5310086401
 21
110.479861614
 31
0.0
  0
INSERT
  5
A9
330
1F
100
AcDbEntity
  8
FORMAT
 62
     7
100
AcDbBlockReference
  2
SW_CENTERMARKSYMBOL_1
 10
-295.5310086401
 20
110.479861614
 30
0.0
  0
LINE
  5
AA
330
1F
100
AcDbEntity
  8
0
  6
Continuous
 62
     7
370
    25
100
AcDbLine
 10
148.872734836
 20
530.7814324087
 30
0.0
 11
148.872734836
 21
650.7814324087
 31
0.0
  0
LINE
  5
AB
330
1F
100
AcDbEntity
  8
0
  6
Continuous
 62
     7
370
    25
100
AcDbLine
 10
148.872734836
 20
270.7814324087
 30
0.0
 11
148.872734836
 21
390.7814324087
 31
0.0
  0
LINE
  5
AC
330
1F
100
AcDbEntity
  8
0
  6
Continuous
 62
     7
370
    25
100
AcDbLine
 10
8.872734836
 20
650.7814324087
 30
0.0
 11
8.872734836
 21
270.7814324087
 31
0.0
  0
LINE
  5
AD
330
1F
100
AcDbEntity
  8
0
  6
Continuous
 62
     7
370
    25
100
AcDbLine
 10
148.872734836
 20
390.7814324087
 30
0.0
 11
267.872734836
 21
390.7814324087
 31
0.0
  0
LINE
  5
AE
330
1F
100
AcDbEntity
  8
0
  6
Continuous
 62
     7
370
    25
100
AcDbLine
 10
267.872734836
 20
530.7814324087
 30
0.0
 11
148.872734836
 21
530.7814324087
 31
0.0
  0
LINE
  5
AF
330
1F
100
AcDbEntity
  8
0
  6
Continuous
 62
     7
370
    25
100
AcDbLine
 10
148.872734836
 20
530.7814324087
 30
0.0
 11
78.872734836
 21
460.7814324087
 31
0.0
  0
LINE
  5
B0
330
1F
100
AcDbEntity
  8
0
  6
Continuous
 62
     7
370
    25
100
AcDbLine
 10
78.872734836
 20
460.7814324087
 30
0.0
 11
148.872734836
 21
390.7814324087
 31
0.0
  0
LINE
  5
B1
330
1F
100
AcDbEntity
  8
0
  6
Continuous
 62
     7
370
    25
100
AcDbLine
 10
8.872734836
 20
650.7814324087
 30
0.0
 11
148.872734836
 21
650.7814324087
 31
0.0
  0
LINE
  5
B2
330
1F
100
AcDbEntity
  8
0
  6
Continuous
 62
     7
370
    25
100
AcDbLine
 10
8.872734836
 20
270.7814324087
 30
0.0
 11
148.872734836
 21
270.7814324087
 31
0.0
  0
LINE
  5
B3
330
1F
100
AcDbEntity
  8
0
  6
Continuous
 62
     7
370
    25
100
AcDbLine
 10
267.872734836
 20
530.7814324087
 30
0.0
 11
267.872734836
 21
390.7814324087
 31
0.0
  0
LINE
  5
B4
330
1F
100
AcDbEntity
  8
0
  6
Continuous
 62
     7
370
    25
100
AcDbLine
 10
500.4647086518
 20
40.479861614
 30
0.0
 11
690.4647086518
 21
40.479861614
 31
0.0
  0
LINE
  5
B5
330
1F
100
AcDbEntity
  8
0
  6
Continuous
 62
     7
370
    25
100
AcDbLine
 10
310.4647086518
 20
40.479861614
 30
0.0
 11
500.4647086518
 21
40.479861614
 31
0.0
  0
LINE
  5
B6
330
1F
100
AcDbEntity
  8
0
  6
Continuous
 62
     7
370
    25
100
AcDbLine
 10
500.4647086518
 20
180.479861614
 30
0.0
 11
310.4647086518
 21
180.479861614
 31
0.0
  0
LINE
  5
B7
330
1F
100
AcDbEntity
  8
0
  6
Continuous
 62
     7
370
    25
100
AcDbLine
 10
690.4647086518
 20
180.479861614
 30
0.0
 11
500.4647086518
 21
180.479861614
 31
0.0
  0
LINE
  5
B8
330
1F
100
AcDbEntity
  8
0
  6
Continuous
 62
     7
370
    25
100
AcDbLine
 10
690.4647086518
 20
180.479861614
 30
0.0
 11
690.4647086518
 21
40.479861614
 31
0.0
  0
LINE
  5
B9
330
1F
100
AcDbEntity
  8
0
  6
Continuous
 62
     7
370
    25
100
AcDbLine
 10
310.4647086518
 20
180.479861614
 30
0.0
 11
310.4647086518
 21
40.479861614
 31
0.0
  0
LINE
  5
BA
330
1F
100
AcDbEntity
  8
0
  6
Continuous
 62
     7
370
    25
100
AcDbLine
 10
8.872734836
 20
-37.1581769132
 30
0.0
 11
8.872734836
 21
-417.1581769132
 31
0.0
  0
LINE
  5
BB
330
1F
100
AcDbEntity
  8
0
  6
Continuous
 62
     7
370
    25
100
AcDbLine
 10
148.872734836
 20
-157.1581769132
 30
0.0
 11
148.872734836
 21
-37.1581769132
 31
0.0
  0
LINE
  5
BC
330
1F
100
AcDbEntity
  8
0
  6
Continuous
 62
     7
370
    25
100
AcDbLine
 10
148.872734836
 20
-417.1581769132
 30
0.0
 11
148.872734836
 21
-297.1581769132
 31
0.0
  0
LINE
  5
BD
330
1F
100
AcDbEntity
  8
0
  6
Continuous
 62
     7
370
    25
100
AcDbLine
 10
148.872734836
 20
-297.1581769132
 30
0.0
 11
267.872734836
 21
-297.1581769132
 31
0.0
  0
LINE
  5
BE
330
1F
100
AcDbEntity
  8
0
  6
Continuous
 62
     7
370
    25
100
AcDbLine
 10
267.872734836
 20
-157.1581769132
 30
0.0
 11
148.872734836
 21
-157.1581769132
 31
0.0
  0
LINE
  5
BF
330
1F
100
AcDbEntity
  8
0
  6
Continuous
 62
     7
370
    25
100
AcDbLine
 10
78.872734836
 20
-227.1581769132
 30
0.0
 11
148.872734836
 21
-297.1581769132
 31
0.0
  0
LINE
  5
C0
330
1F
100
AcDbEntity
  8
0
  6
Continuous
 62
     7
370
    25
100
AcDbLine
 10
148.872734836
 20
-157.1581769132
 30
0.0
 11
78.872734836
 21
-227.1581769132
 31
0.0
  0
LINE
  5
C1
330
1F
100
AcDbEntity
  8
0
  6
Continuous
 62
     7
370
    25
100
AcDbLine
 10
148.872734836
 20
-417.1581769132
 30
0.0
 11
8.872734836
 21
-417.1581769132
 31
0.0
  0
LINE
  5
C2
330
1F
100
AcDbEntity
  8
0
  6
Continuous
 62
     7
370
    25
100
AcDbLine
 10
148.872734836
 20
-37.1581769132
 30
0.0
 11
8.872734836
 21
-37.1581769132
 31
0.0
  0
LINE
  5
C3
330
1F
100
AcDbEntity
  8
0
  6
Continuous
 62
     7
370
    25
100
AcDbLine
 10
267.872734836
 20
-157.1581769132
 30
0.0
 11
267.872734836
 21
-297.1581769132
 31
0.0
  0
LINE
  5
C4
330
1F
100
AcDbEntity
  8
0
  6
Continuous
 62
     7
370
    25
100
AcDbLine
 10
510.5273466326
 20
-142.6491648353
 30
0.0
 11
411.1742138494
 21
-85.2938221224
 31
0.0
  0
LINE
  5
C5
330
1F
100
AcDbEntity
  8
0
  6
Continuous
 62
     7
370
    25
100
AcDbLine
 10
679.8747907003
 20
-240.4113633687
 30
0.0
 11
650.5387249882
 21
-223.4760131122
 31
0.0
  0
LINE
  5
C6
330
1F
100
AcDbEntity
  8
0
  6
Continuous
 62
     7
370
    25
100
AcDbLine
 10
341.1799025649
 20
-206.5406628557
 30
0.0
 11
609.8804794158
 21
-361.658204102
 31
0.0
  0
LINE
  5
C7
330
1F
100
AcDbEntity
  8
0
  6
Continuous
 62
     7
370
    25
100
AcDbLine
 10
580.5216579171
 20
-263.8960055686
 30
0.0
 11
679.1676839191
 21
-206.9488669116
 31
0.0
  0
LINE
  5
C8
330
1F
100
AcDbEntity
  8
0
  6
Continuous
 62
     7
370
    25
100
AcDbLine
 10
609.1733726346
 20
-85.7020261783
 30
0.0
 11
510.5273466326
 21
-142.6491648353
 31
0.0
  0
LINE
  5
C9
330
1F
100
AcDbEntity
  8
0
  6
Continuous
 62
     7
370
    25
100
AcDbLine
 10
510.5273466326
 20
-142.6491648353
 30
0.0
 11
510.5273466326
 21
-280.6338699442
 31
0.0
  0
ELLIPSE
  5
CA
330
1F
100
AcDbEntity
  8
0
  6
Continuous
 62
     7
370
    25
100
AcDbEllipse
 10
510.5273466326
 20
-223.4760131122
 30
0.0
 11
98.99494936611666
 21
1.421085471520200E-13
 31
0.0
210
0.0
220
0.0
230
1.0
 40
0.5773815452
 41
4.712388980384697
 42
5.497705879720051
  0
LWPOLYLINE
  5
CB
330
1F
100
AcDbEntity
  8
0
  6
Continuous
 62
     7
370
    25
100
AcDbPolyline
 90
       92
 70
   128
 43
0.0
 10
425.6745328902
 20
-117.3429585752
 10
425.5565938862
 20
-113.4676573585
 10
425.2033389075
 20
-109.7469931923
 10
424.6164513747
 20
-106.1986967358
 10
423.7987280743
 20
-102.8396772377
 10
422.7540658302
 20
-99.6859419553
 10
421.4874429338
 20
-96.7525198736
 10
420.0048954199
 20
-94.0533900847
 10
418.3134883025
 20
-91.6014151711
 10
416.421281907
 20
-89.40827991
 10
414.3372934584
 20
-87.4844355896
 10
412.0714541107
 20
-85.8390502043
 10
409.6345616204
 20
-84.4799647646
 10
407.0382288898
 20
-83.4136559317
 10
404.2948286268
 20
-82.6452051527
 10
401.417434383
 20
-82.1782744456
 10
398.4197582523
 20
-82.0150889477
 10
395.3160855267
 20
-82.1564263124
 10
392.1212066199
 20
-82.6016130026
 10
388.8503465851
 20
-83.3485275012
 10
385.5190925598
 20
-84.3936104202
 10
382.1433194864
 20
-85.7318814638
 10
378.7391144611
 20
-87.356963161
 10
375.3227000709
 20
-89.2611112573
 10
371.9103570863
 20
-91.4352516201
 10
368.5183468756
 20
-93.8690234803
 10
365.1628339122
 20
-96.5508288067
 10
361.8598087433
 20
-99.4678875756
 10
358.6250117883
 20
-102.6062986736
 10
355.4738583275
 20
-105.9511061426
 10
352.4213650424
 20
-109.4863704518
 10
349.4820784534
 20
-113.1952444567
 10
346.6700055999
 20
-117.0600536838
 10
343.9985472894
 20
-121.062380557
 10
341.4804342375
 20
-125.1831521662
 10
339.1276663995
 20
-129.402731158
 10
336.9514557857
 20
-133.701009317
 10
334.9621730307
 20
-138.0575033903
 10
333.1692979728
 20
-142.4514526997
 10
331.5813744779
 20
-146.8619180758
 10
330.2059697248
 20
-151.2678816424
 10
329.0496381434
 20
-155.6483469769
 10
328.1178901804
 20
-159.9824391669
 10
327.415166039
 20
-164.2495042896
 10
326.9448145198
 20
-168.4292078362
 10
326.7090770621
 20
-172.5016316161
 10
326.7090770621
 20
-176.4473686754
 10
326.9448145198
 20
-180.24761578
 10
327.415166039
 20
-183.884263022
 10
328.1178901804
 20
-187.339980121
 10
329.0496381434
 20
-190.5982990113
 10
330.2059697248
 20
-193.6436923197
 10
331.5813744779
 20
-196.4616473602
 10
333.1692979728
 20
-199.0387352936
 10
334.9621730307
 20
-201.3626751225
 10
336.9514557857
 20
-203.4223922151
 10
339.1276663995
 20
-205.2080710816
 10
341.4804342375
 20
-206.7112021489
 10
343.9985472894
 20
-207.9246223131
 10
346.6700055999
 20
-208.8425490744
 10
349.4820784534
 20
-209.4606080937
 10
352.4213650424
 20
-209.7758540385
 10
355.4738583275
 20
-209.7867846182
 10
358.6250117883
 20
-209.4933477436
 10
361.8598087433
 20
-208.8969417751
 10
365.1628339122
 20
-208.0004088587
 10
368.5183468756
 20
-206.808021382
 10
371.9103570863
 20
-205.3254616144
 10
375.3227000709
 20
-203.5597946283
 10
378.7391144611
 20
-201.5194346309
 10
382.1433194864
 20
-199.214104867
 10
385.5190925598
 20
-196.6547912825
 10
388.8503465851
 20
-193.8536901723
 10
392.1212066199
 20
-190.8241500587
 10
395.3160855267
 20
-187.58060808
 10
398.4197582523
 20
-184.138521191
 10
401.417434383
 20
-180.514292503
 10
404.2948286268
 20
-176.7251931163
 10
407.0382288898
 20
-172.789279815
 10
409.6345616204
 20
-168.7253090184
 10
412.0714541107
 20
-164.5526473981
 10
414.3372934584
 20
-160.2911795868
 10
416.421281907
 20
-155.9612134194
 10
418.3134883025
 20
-151.5833831565
 10
420.0048954199
 20
-147.178551153
 10
421.4874429338
 20
-142.7677084394
 10
422.7540658302
 20
-138.3718746897
 10
423.7987280743
 20
-134.0119980538
 10
424.6164513747
 20
-129.7088553292
 10
425.2033389075
 20
-125.4829529507
 10
425.5565938862
 20
-121.3544292675
 10
425.6745328902
 20
-117.3429585752
  0
LWPOLYLINE
  5
CC
330
1F
100
AcDbEntity
  8
0
  6
Continuous
 62
     7
370
    25
100
AcDbPolyline
 90
       13
 70
   128
 43
0.0
 10
694.3751097411
 20
-272.4604998216
 10
694.2571707371
 20
-268.5851986048
 10
693.9039157584
 20
-264.8645344386
 10
693.3170282256
 20
-261.3162379822
 10
692.4993049252
 20
-257.957218484
 10
691.4546426811
 20
-254.8034832016
 10
690.1880197847
 20
-251.8700611199
 10
688.7054722708
 20
-249.170931331
 10
687.0140651534
 20
-246.7189564174
 10
685.1218587579
 20
-244.5258211563
 10
683.0378703093
 20
-242.6019768359
 10
680.7720309616
 20
-240.9565914506
 10
679.8747907003
 20
-240.4113633687
  0
LWPOLYLINE
  5
CD
330
1F
100
AcDbEntity
  8
0
  6
Continuous
 62
     7
370
    25
100
AcDbPolyline
 90
       36
 70
   128
 43
0.0
 10
609.8804794158
 20
-361.658204102
 10
610.1810110884
 20
-361.8287433953
 10
612.6991241403
 20
-363.0421635594
 10
615.3705824508
 20
-363.9600903207
 10
618.1826553043
 20
-364.5781493401
 10
621.1219418933
 20
-364.8933952848
 10
624.1744351784
 20
-364.9043258645
 10
627.3255886391
 20
-364.6108889899
 10
630.5603855942
 20
-364.0144830214
 10
633.8634107631
 20
-363.117950105
 10
637.2189237265
 20
-361.9255626283
 10
640.6109339372
 20
-360.4430028607
 10
644.0232769218
 20
-358.6773358746
 10
647.439691312
 20
-356.6369758773
 10
650.8438963373
 20
-354.3316461133
 10
654.2196694107
 20
-351.7723325288
 10
657.550923436
 20
-348.9712314186
 10
660.8217834708
 20
-345.941691305
 10
664.0166623775
 20
-342.6981493264
 10
667.1203351032
 20
-339.2560624373
 10
670.1180112339
 20
-335.6318337493
 10
672.9954054777
 20
-331.8427343626
 10
675.7388057407
 20
-327.9068210613
 10
678.3351384712
 20
-323.8428502647
 10
680.7720309616
 20
-319.6701886444
 10
683.0378703093
 20
-315.4087208331
 10
685.1218587579
 20
-311.0787546657
 10
687.0140651534
 20
-306.7009244029
 10
688.7054722708
 20
-302.2960923994
 10
690.1880197847
 20
-297.8852496857
 10
691.4546426811
 20
-293.489415936
 10
692.4993049252
 20
-289.1295393001
 10
693.3170282256
 20
-284.8263965755
 10
693.9039157584
 20
-280.600494197
 10
694.2571707371
 20
-276.4719705139
 10
694.3751097411
 20
-272.4604998216
  0
LWPOLYLINE
  5
CE
330
1F
100
AcDbEntity
  8
0
  6
Continuous
 62
     7
370
    25
100
AcDbPolyline
 90
       84
 70
   128
 43
0.0
 10
416.6942767691
 20
-122.5271500853
 10
416.5782372898
 20
-119.0556364823
 10
416.2307835153
 20
-115.7379837259
 10
415.6539056296
 20
-112.5931950308
 10
414.8509079368
 20
-109.6392834616
 10
413.826389935
 20
-106.8931687565
 10
412.5862199706
 20
-104.3705804117
 10
411.1375016247
 20
-102.0859675848
 10
409.488533025
 20
-100.0524163313
 10
407.6487593142
 20
-98.2815746485
 10
405.6287185495
 20
-96.7835857573
 10
403.4399813415
 20
-95.5670300023
 10
401.0950845787
 20
-94.6388757047
 10
398.6074596174
 20
-94.0044392483
 10
395.9913553481
 20
-93.6673546278
 10
393.2617565791
 20
-93.6295526332
 10
390.434298205
 20
-93.8912497909
 10
387.5251756514
 20
-94.4509471234
 10
384.5510521087
 20
-95.305438735
 10
381.5289630873
 20
-96.4498301751
 10
378.4762188394
 20
-97.8775664732
 10
375.4103052076
 20
-99.5804696851
 10
372.3487834676
 20
-101.5487857354
 10
369.3091897385
 20
-103.771240288
 10
366.3089345382
 20
-106.2351033245
 10
363.3652030565
 20
-108.9262620605
 10
360.4948567209
 20
-111.8293017825
 10
357.7143366153
 20
-114.927594142
 10
355.0395693069
 20
-118.2033924008
 10
352.4858756208
 20
-121.6379330831
 10
350.0678828831
 20
-125.211543451
 10
347.7994411372
 20
-128.9037541879
 10
345.693543812
 20
-132.693416645
 10
343.7622532967
 20
-136.5588239791
 10
342.0166318485
 20
-140.4778354869
 10
340.466678229
 20
-144.4280034253
 10
339.121270432
 20
-148.3867015903
 10
337.9881148316
 20
-152.3312549172
 10
337.0737020406
 20
-156.2390693618
 10
336.3832697325
 20
-160.0877613167
 10
335.9207726411
 20
-163.8552858231
 10
335.6888599078
 20
-167.5200628417
 10
335.6888599078
 20
-171.0611008617
 10
335.9207726411
 20
-174.458117138
 10
336.3832697325
 20
-177.6916538688
 10
337.0737020406
 20
-180.7431896488
 10
337.9881148316
 20
-183.5952455573
 10
339.121270432
 20
-186.2314852762
 10
340.466678229
 20
-188.6368086634
 10
342.0166318485
 20
-190.7974382441
 10
343.7622532967
 20
-192.7009981278
 10
345.693543812
 20
-194.336584896
 10
347.7994411372
 20
-195.6948300557
 10
350.0678828831
 20
-196.7679537016
 10
352.4858756208
 20
-197.5498090787
 10
355.0395693069
 20
-198.0359177902
 10
357.7143366153
 20
-198.2234954494
 10
360.4948567209
 20
-198.1114676284
 10
363.3652030565
 20
-197.7004760126
 10
366.3089345382
 20
-196.9928747245
 10
369.3091897385
 20
-195.9927168404
 10
372.3487834676
 20
-194.705731174
 10
375.4103052076
 20
-193.1392894627
 10
378.4762188394
 20
-191.3023641427
 10
381.5289630873
 20
-189.2054769559
 10
384.5510521087
 20
-186.8606386822
 10
387.5251756514
 20
-184.281280343
 10
390.434298205
 20
-181.4821762691
 10
393.2617565791
 20
-178.4793594753
 10
395.9913553481
 20
-175.2900298242
 10
398.6074596174
 20
-171.9324555072
 10
401.0950845787
 20
-168.4258684059
 10
403.4399813415
 20
-164.7903539338
 10
405.6287185495
 20
-161.0467359885
 10
407.6487593142
 20
-157.2164576745
 10
409.488533025
 20
-153.3214584792
 10
411.1375016247
 20
-149.3840486052
 10
412.5862199706
 20
-145.4267811797
 10
413.826389935
 20
-141.4723230722
 10
414.8509079368
 20
-137.5433250606
 10
415.6539056296
 20
-133.6622920896
 10
416.2307835153
 20
-129.8514543648
 10
416.5782372898
 20
-126.1326400194
 10
416.6942767691
 20
-122.5271500853
  0
LWPOLYLINE
  5
CF
330
1F
100
AcDbEntity
  8
0
  6
Continuous
 62
     7
370
    25
100
AcDbPolyline
 90
       92
 70
   128
 43
0.0
 10
693.6680029599
 20
-174.8997304587
 10
693.5500639559
 20
-170.8882597665
 10
693.1968089772
 20
-166.7597360833
 10
692.6099214444
 20
-162.5338337048
 10
691.792198144
 20
-158.2306909802
 10
690.7475358999
 20
-153.8708143443
 10
689.4809130035
 20
-149.4749805946
 10
687.9983654896
 20
-145.064137881
 10
686.3069583722
 20
-140.6593058775
 10
684.4147519767
 20
-136.2814756146
 10
682.3307635281
 20
-131.9515094472
 10
680.0649241804
 20
-127.6900416359
 10
677.6280316901
 20
-123.5173800156
 10
675.0316989595
 20
-119.453409219
 10
672.2882986965
 20
-115.5174959177
 10
669.4109044527
 20
-111.728396531
 10
666.413228322
 20
-108.104167843
 10
663.3095555964
 20
-104.6620809539
 10
660.1146766896
 20
-101.4185389753
 10
656.8438166548
 20
-98.3889988617
 10
653.5125626295
 20
-95.5878977515
 10
650.1367895562
 20
-93.028584167
 10
646.7325845308
 20
-90.7232544031
 10
643.3161701406
 20
-88.6828944057
 10
639.903827156
 20
-86.9172274196
 10
636.5118169453
 20
-85.434667652
 10
633.1563039819
 20
-84.2422801753
 10
629.8532788131
 20
-83.3457472589
 10
626.618481858
 20
-82.7493412904
 10
623.4673283972
 20
-82.4559044158
 10
620.4148351121
 20
-82.4668349955
 10
617.4755485231
 20
-82.7820809403
 10
614.6634756696
 20
-83.4001399596
 10
611.9920173591
 20
-84.3180667209
 10
609.4739043072
 20
-85.5314868851
 10
607.1211364692
 20
-87.0346179524
 10
604.9449258554
 20
-88.8202968189
 10
602.9556431004
 20
-90.8800139115
 10
601.1627680425
 20
-93.2039537404
 10
599.5748445476
 20
-95.7810416738
 10
598.1994397945
 20
-98.5989967143
 10
597.0431082131
 20
-101.6443900227
 10
596.1113602501
 20
-104.902708913
 10
595.4086361087
 20
-108.358426012
 10
594.9382845895
 20
-111.995073254
 10
594.7025471318
 20
-115.7953203586
 10
594.7025471318
 20
-119.7410574179
 10
594.9382845895
 20
-123.8134811978
 10
595.4086361087
 20
-127.9931847444
 10
596.1113602501
 20
-132.2602498671
 10
597.0431082131
 20
-136.5943420571
 10
598.1994397945
 20
-140.9748073915
 10
599.5748445476
 20
-145.3807709582
 10
601.1627680425
 20
-149.7912363343
 10
602.9556431004
 20
-154.1851856437
 10
604.9449258554
 20
-158.541679717
 10
607.1211364692
 20
-162.839957876
 10
609.4739043072
 20
-167.0595368678
 10
611.9920173591
 20
-171.180308477
 10
614.6634756696
 20
-175.1826353502
 10
617.4755485231
 20
-179.0474445773
 10
620.4148351121
 20
-182.7563185822
 10
623.4673283972
 20
-186.2915828914
 10
626.618481858
 20
-189.6363903604
 10
629.8532788131
 20
-192.7748014584
 10
633.1563039819
 20
-195.6918602273
 10
636.5118169453
 20
-198.3736655537
 10
639.903827156
 20
-200.8074374139
 10
643.3161701406
 20
-202.9815777766
 10
646.7325845308
 20
-204.885725873
 10
650.1367895562
 20
-206.5108075702
 10
653.5125626295
 20
-207.8490786138
 10
656.8438166548
 20
-208.8941615328
 10
660.1146766896
 20
-209.6410760314
 10
663.3095555964
 20
-210.0862627216
 10
666.413228322
 20
-210.2276000863
 10
669.4109044527
 20
-210.0644145884
 10
672.2882986965
 20
-209.5974838813
 10
675.0316989595
 20
-208.8290331023
 10
677.6280316901
 20
-207.7627242694
 10
680.0649241804
 20
-206.4036388297
 10
682.3307635281
 20
-204.7582534444
 10
684.4147519767
 20
-202.834409124
 10
686.3069583722
 20
-200.6412738629
 10
687.9983654896
 20
-198.1892989493
 10
689.4809130035
 20
-195.4901691604
 10
690.7475358999
 20
-192.5567470787
 10
691.792198144
 20
-189.4030117963
 10
692.6099214444
 20
-186.0439922981
 10
693.1968089772
 20
-182.4956958417
 10
693.5500639559
 20
-178.7750316755
 10
693.6680029599
 20
-174.8997304587
  0
LWPOLYLINE
  5
D0
330
1F
100
AcDbEntity
  8
0
  6
Continuous
 62
     7
370
    25
100
AcDbPolyline
 90
       84
 70
   128
 43
0.0
 10
684.6877468388
 20
-169.7155389487
 10
684.5717073595
 20
-166.1100490146
 10
684.224253585
 20
-162.3912346692
 10
683.6473756993
 20
-158.5803969444
 10
682.8443780065
 20
-154.6993639734
 10
681.8198600047
 20
-150.7703659618
 10
680.5796900403
 20
-146.8159078543
 10
679.1309716944
 20
-142.8586404288
 10
677.4820030947
 20
-138.9212305548
 10
675.6422293839
 20
-135.0262313595
 10
673.6221886192
 20
-131.1959530455
 10
671.4334514112
 20
-127.4523351002
 10
669.0885546484
 20
-123.8168206281
 10
666.6009296871
 20
-120.3102335268
 10
663.9848254178
 20
-116.9526592098
 10
661.2552266488
 20
-113.7633295587
 10
658.4277682747
 20
-110.7605127649
 10
655.5186457211
 20
-107.961408691
 10
652.5445221784
 20
-105.3820503518
 10
649.522433157
 20
-103.0372120781
 10
646.4696889091
 20
-100.9403248913
 10
643.4037752773
 20
-99.1033995713
 10
640.3422535373
 20
-97.53695786
 10
637.3026598082
 20
-96.2499721936
 10
634.3024046079
 20
-95.2498143095
 10
631.3586731262
 20
-94.5422130214
 10
628.4883267906
 20
-94.1312214056
 10
625.707806685
 20
-94.0191935846
 10
623.0330393766
 20
-94.2067712438
 10
620.4793456905
 20
-94.6928799553
 10
618.0613529528
 20
-95.4747353324
 10
615.7929112069
 20
-96.5478589783
 10
613.6870138817
 20
-97.906104138
 10
611.7557233664
 20
-99.5416909062
 10
610.0101019182
 20
-101.4452507899
 10
608.4601482987
 20
-103.6058803706
 10
607.1147405017
 20
-106.0112037578
 10
605.9815849013
 20
-108.6474434767
 10
605.0671721103
 20
-111.4994993852
 10
604.3767398022
 20
-114.5510351652
 10
603.9142427108
 20
-117.784571896
 10
603.6823299775
 20
-121.1815881723
 10
603.6823299775
 20
-124.7226261923
 10
603.9142427108
 20
-128.3874032109
 10
604.3767398022
 20
-132.1549277173
 10
605.0671721103
 20
-136.0036196722
 10
605.9815849013
 20
-139.9114341168
 10
607.1147405017
 20
-143.8559874437
 10
608.4601482987
 20
-147.8146856087
 10
610.0101019182
 20
-151.7648535471
 10
611.7557233664
 20
-155.6838650549
 10
613.6870138817
 20
-159.549272389
 10
615.7929112069
 20
-163.3389348461
 10
618.0613529528
 20
-167.031145583
 10
620.4793456905
 20
-170.6047559509
 10
623.0330393766
 20
-174.0392966332
 10
625.707806685
 20
-177.315094892
 10
628.4883267906
 20
-180.4133872514
 10
631.3586731262
 20
-183.3164269735
 10
634.3024046079
 20
-186.0075857095
 10
637.3026598082
 20
-188.471448746
 10
640.3422535373
 20
-190.6939032986
 10
643.4037752773
 20
-192.6622193489
 10
646.4696889091
 20
-194.3651225608
 10
649.522433157
 20
-195.7928588589
 10
652.5445221784
 20
-196.937250299
 10
655.5186457211
 20
-197.7917419106
 10
658.4277682747
 20
-198.3514392431
 10
661.2552266488
 20
-198.6131364008
 10
663.9848254178
 20
-198.5753344062
 10
666.6009296871
 20
-198.2382497857
 10
669.0885546484
 20
-197.6038133293
 10
671.4334514112
 20
-196.6756590317
 10
673.6221886192
 20
-195.4591032767
 10
675.6422293839
 20
-193.9611143855
 10
677.4820030947
 20
-192.1902727027
 10
679.1309716944
 20
-190.1567214492
 10
680.5796900403
 20
-187.8721086223
 10
681.8198600047
 20
-185.3495202775
 10
682.8443780065
 20
-182.6034055724
 10
683.6473756993
 20
-179.6494940032
 10
684.224253585
 20
-176.504705308
 10
684.5717073595
 20
-173.1870525517
 10
684.6877468388
 20
-169.7155389487
  0
ENDSEC
  0
SECTION
  2
OBJECTS
  0
DICTIONARY
  5
C
330
0
100
AcDbDictionary
281
     1
  3
ACAD_GROUP
350
D
  3
ACAD_LAYOUT
350
1A
  3
ACAD_MLINESTYLE
350
17
  3
ACAD_PLOTSETTINGS
350
19
  3
ACAD_PLOTSTYLENAME
350
E
  3
ACAD_SCALELIST
350
47
  3
DWGPROPS
350
D1
  0
DICTIONARY
  5
D
102
{ACAD_REACTORS
330
C
102
}
330
C
100
AcDbDictionary
281
     1
  0
DICTIONARY
  5
1A
102
{ACAD_REACTORS
330
C
102
}
330
C
100
AcDbDictionary
281
     1
  3
Layout1
350
1E
  3
Layout2
350
26
  3
Model
350
22
  0
DICTIONARY
  5
17
102
{ACAD_REACTORS
330
C
102
}
330
C
100
AcDbDictionary
281
     1
  3
Standard
350
18
  0
DICTIONARY
  5
19
102
{ACAD_REACTORS
330
C
102
}
330
C
100
AcDbDictionary
281
     1
  0
ACDBDICTIONARYWDFLT
  5
E
102
{ACAD_REACTORS
330
C
102
}
330
C
100
AcDbDictionary
281
     1
  3
Normal
350
F
100
AcDbDictionaryWithDefault
340
F
  0
DICTIONARY
  5
47
102
{ACAD_REACTORS
330
C
102
}
330
C
100
AcDbDictionary
281
     1
  3
A0
350
48
  3
A1
350
49
  3
A2
350
4A
  3
A3
350
4B
  3
A4
350
4C
  3
A5
350
4D
  3
A6
350
4E
  3
A7
350
4F
  3
A8
350
50
  3
A9
350
51
  3
B0
350
52
  3
B1
350
53
  3
B2
350
54
  3
B3
350
55
  3
B4
350
56
  3
B5
350
57
  3
B6
350
58
  3
B7
350
59
  3
B8
350
5A
  3
B9
350
5B
  3
C0
350
5C
  3
C1
350
5D
  3
C2
350
5E
  3
C3
350
5F
  3
C4
350
60
  3
C5
350
61
  3
C6
350
62
  3
C7
350
63
  3
C8
350
64
  3
C9
350
65
  3
D0
350
66
  3
D1
350
67
  3
D2
350
68
  0
XRECORD
  5
D1
102
{ACAD_REACTORS
330
C
102
}
330
C
100
AcDbXrecord
280
     1
  1
DWGPROPS COOKIE
  2

  3

  4

  6

  7

  8
b.kav
  9

300
=
301
=
302
=
303
=
304
=
305
=
306
=
307
=
308
=
309
=
 40
0.0
 41
2460608.405328692
 42
2460608.405328692
  1

 90
        0
  0
LAYOUT
  5
1E
102
{ACAD_REACTORS
330
1A
102
}
330
1A
100
AcDbPlotSettings
  1

  2
none_device
  4

  6

 40
0.0
 41
0.0
 42
0.0
 43
0.0
 44
0.0
 45
0.0
 46
0.0
 47
0.0
 48
0.0
 49
0.0
140
0.0
141
0.0
142
1.0
143
1.0
 70
   688
 72
     1
 73
     0
 74
     5
  7

 75
    16
147
1.0
148
0.0
149
0.0
100
AcDbLayout
  1
Layout1
 70
     1
 71
     1
 10
0.0
 20
0.0
 11
420.0
 21
297.0
 12
0.0
 22
0.0
 32
0.0
 14
1.0000000000E+20
 24
1.0000000000E+20
 34
1.0000000000E+20
 15
-1.0000000000E+20
 25
-1.0000000000E+20
 35
-1.0000000000E+20
146
0.0
 13
0.0
 23
0.0
 33
0.0
 16
1.0
 26
0.0
 36
0.0
 17
0.0
 27
1.0
 37
0.0
 76
     0
330
1B
  0
LAYOUT
  5
26
102
{ACAD_REACTORS
330
1A
102
}
330
1A
100
AcDbPlotSettings
  1

  2
none_device
  4

  6

 40
0.0
 41
0.0
 42
0.0
 43
0.0
 44
0.0
 45
0.0
 46
0.0
 47
0.0
 48
0.0
 49
0.0
140
0.0
141
0.0
142
1.0
143
1.0
 70
   688
 72
     1
 73
     0
 74
     5
  7

 75
    16
147
1.0
148
0.0
149
0.0
100
AcDbLayout
  1
Layout2
 70
     1
 71
     2
 10
0.0
 20
0.0
 11
0.0
 21
0.0
 12
0.0
 22
0.0
 32
0.0
 14
0.0
 24
0.0
 34
0.0
 15
0.0
 25
0.0
 35
0.0
146
0.0
 13
0.0
 23
0.0
 33
0.0
 16
1.0
 26
0.0
 36
0.0
 17
0.0
 27
1.0
 37
0.0
 76
     0
330
23
  0
LAYOUT
  5
22
102
{ACAD_REACTORS
330
1A
102
}
330
1A
100
AcDbPlotSettings
  1

  2
none_device
  4
Letter_(8.50_x_11.00_Inches)
  6

 40
6.35
 41
6.35
 42
6.35000508
 43
6.35000508
 44
215.9
 45
279.4
 46
0.0
 47
0.0
 48
0.0
 49
0.0
140
0.0
141
0.0
142
1.0
143
1.0
 70
  1712
 72
     1
 73
     0
 74
     0
  7

 75
     0
147
1.0
148
0.0
149
0.0
100
AcDbLayout
  1
Model
 70
     1
 71
     0
 10
0.0
 20
0.0
 11
279.4
 21
215.9
 12
0.0
 22
0.0
 32
0.0
 14
0.0
 24
0.0
 34
0.0
 15
279.4
 25
215.9
 35
0.0
146
0.0
 13
0.0
 23
0.0
 33
0.0
 16
1.0
 26
0.0
 36
0.0
 17
0.0
 27
1.0
 37
0.0
 76
     0
330
1F
331
29
  0
MLINESTYLE
  5
18
102
{ACAD_REACTORS
330
17
102
}
330
17
100
AcDbMlineStyle
  2
Standard
 70
     0
  3

 62
   256
 51
90.0
 52
90.0
 71
     2
 49
0.5
 62
   256
  6
BYLAYER
 49
-0.5
 62
   256
  6
BYLAYER
  0
ACDBPLACEHOLDER
  5
F
102
{ACAD_REACTORS
330
E
102
}
330
E
  0
SCALE
  5
48
102
{ACAD_REACTORS
330
47
102
}
330
47
100
AcDbScale
 70
     0
300
1:1
140
1.0
141
1.0
290
     1
  0
SCALE
  5
49
102
{ACAD_REACTORS
330
47
102
}
330
47
100
AcDbScale
 70
     0
300
1:2
140
1.0
141
2.0
290
     0
  0
SCALE
  5
4A
102
{ACAD_REACTORS
330
47
102
}
330
47
100
AcDbScale
 70
     0
300
1:4
140
1.0
141
4.0
290
     0
  0
SCALE
  5
4B
102
{ACAD_REACTORS
330
47
102
}
330
47
100
AcDbScale
 70
     0
300
1:5
140
1.0
141
5.0
290
     0
  0
SCALE
  5
4C
102
{ACAD_REACTORS
330
47
102
}
330
47
100
AcDbScale
 70
     0
300
1:8
140
1.0
141
8.0
290
     0
  0
SCALE
  5
4D
102
{ACAD_REACTORS
330
47
102
}
330
47
100
AcDbScale
 70
     0
300
1:10
140
1.0
141
10.0
290
     0
  0
SCALE
  5
4E
102
{ACAD_REACTORS
330
47
102
}
330
47
100
AcDbScale
 70
     0
300
1:16
140
1.0
141
16.0
290
     0
  0
SCALE
  5
4F
102
{ACAD_REACTORS
330
47
102
}
330
47
100
AcDbScale
 70
     0
300
1:20
140
1.0
141
20.0
290
     0
  0
SCALE
  5
50
102
{ACAD_REACTORS
330
47
102
}
330
47
100
AcDbScale
 70
     0
300
1:30
140
1.0
141
30.0
290
     0
  0
SCALE
  5
51
102
{ACAD_REACTORS
330
47
102
}
330
47
100
AcDbScale
 70
     0
300
1:40
140
1.0
141
40.0
290
     0
  0
SCALE
  5
52
102
{ACAD_REACTORS
330
47
102
}
330
47
100
AcDbScale
 70
     0
300
1:50
140
1.0
141
50.0
290
     0
  0
SCALE
  5
53
102
{ACAD_REACTORS
330
47
102
}
330
47
100
AcDbScale
 70
     0
300
1:100
140
1.0
141
100.0
290
     0
  0
SCALE
  5
54
102
{ACAD_REACTORS
330
47
102
}
330
47
100
AcDbScale
 70
     0
300
2:1
140
2.0
141
1.0
290
     0
  0
SCALE
  5
55
102
{ACAD_REACTORS
330
47
102
}
330
47
100
AcDbScale
 70
     0
300
4:1
140
4.0
141
1.0
290
     0
  0
SCALE
  5
56
102
{ACAD_REACTORS
330
47
102
}
330
47
100
AcDbScale
 70
     0
300
8:1
140
8.0
141
1.0
290
     0
  0
SCALE
  5
57
102
{ACAD_REACTORS
330
47
102
}
330
47
100
AcDbScale
 70
     0
300
10:1
140
10.0
141
1.0
290
     0
  0
SCALE
  5
58
102
{ACAD_REACTORS
330
47
102
}
330
47
100
AcDbScale
 70
     0
300
100:1
140
100.0
141
1.0
290
     0
  0
SCALE
  5
59
102
{ACAD_REACTORS
330
47
102
}
330
47
100
AcDbScale
 70
     0
300
1/128" = 1'-0"
140
0.0078125
141
12.0
290
     0
  0
SCALE
  5
5A
102
{ACAD_REACTORS
330
47
102
}
330
47
100
AcDbScale
 70
     0
300
1/64" = 1'-0"
140
0.015625
141
12.0
290
     0
  0
SCALE
  5
5B
102
{ACAD_REACTORS
330
47
102
}
330
47
100
AcDbScale
 70
     0
300
1/32" = 1'-0"
140
0.03125
141
12.0
290
     0
  0
SCALE
  5
5C
102
{ACAD_REACTORS
330
47
102
}
330
47
100
AcDbScale
 70
     0
300
1/16" = 1'-0"
140
0.0625
141
12.0
290
     0
  0
SCALE
  5
5D
102
{ACAD_REACTORS
330
47
102
}
330
47
100
AcDbScale
 70
     0
300
3/32" = 1'-0"
140
0.09375
141
12.0
290
     0
  0
SCALE
  5
5E
102
{ACAD_REACTORS
330
47
102
}
330
47
100
AcDbScale
 70
     0
300
1/8" = 1'-0"
140
0.125
141
12.0
290
     0
  0
SCALE
  5
5F
102
{ACAD_REACTORS
330
47
102
}
330
47
100
AcDbScale
 70
     0
300
3/16" = 1'-0"
140
0.1875
141
12.0
290
     0
  0
SCALE
  5
60
102
{ACAD_REACTORS
330
47
102
}
330
47
100
AcDbScale
 70
     0
300
1/4" = 1'-0"
140
0.25
141
12.0
290
     0
  0
SCALE
  5
61
102
{ACAD_REACTORS
330
47
102
}
330
47
100
AcDbScale
 70
     0
300
3/8" = 1'-0"
140
0.375
141
12.0
290
     0
  0
SCALE
  5
62
102
{ACAD_REACTORS
330
47
102
}
330
47
100
AcDbScale
 70
     0
300
1/2" = 1'-0"
140
0.5
141
12.0
290
     0
  0
SCALE
  5
63
102
{ACAD_REACTORS
330
47
102
}
330
47
100
AcDbScale
 70
     0
300
3/4" = 1'-0"
140
0.75
141
12.0
290
     0
  0
SCALE
  5
64
102
{ACAD_REACTORS
330
47
102
}
330
47
100
AcDbScale
 70
     0
300
1" = 1'-0"
140
1.0
141
12.0
290
     0
  0
SCALE
  5
65
102
{ACAD_REACTORS
330
47
102
}
330
47
100
AcDbScale
 70
     0
300
1-1/2" = 1'-0"
140
1.5
141
12.0
290
     0
  0
SCALE
  5
66
102
{ACAD_REACTORS
330
47
102
}
330
47
100
AcDbScale
 70
     0
300
3" = 1'-0"
140
3.0
141
12.0
290
     0
  0
SCALE
  5
67
102
{ACAD_REACTORS
330
47
102
}
330
47
100
AcDbScale
 70
     0
300
6" = 1'-0"
140
6.0
141
12.0
290
     0
  0
SCALE
  5
68
102
{ACAD_REACTORS
330
47
102
}
330
47
100
AcDbScale
 70
     0
300
1'-0" = 1'-0"
140
12.0
141
12.0
290
     0
  0
ENDSEC
  0
EOF
